  0
SECTION
  2
HEADER
  9
$ACADVER
  1
AC1006
  9
$EXTMIN
 10
-0.586780
 20
-0.659299
  9
$EXTMAX
 10
0.592559
 20
0.664004
  9
$LTSCALE
 40
0.000394
  9
$PDMODE
 70
    35
  9
$PDSIZE
 40
0.000315
  0
ENDSEC
  0
SECTION
  2
TABLES
  0
TABLE
  2
LTYPE
 70
     9
  0
LTYPE
  2
CONTINUOUS
 70
    64
  3
Solid line
 72
    65
 73
     0
 40
0.000000
  0
LTYPE
  2
DASHED
 70
    64
  3
__ __ __ __ __ __ __ __ __ __ __ __ __ __ __
 72
    65
 73
     2
 40
0.000003
 49
0.000002
 49
-0.000001
  0
LTYPE
  2
HIDDEN
 70
    64
  3
 _ _ _ _ _ _ _ _ _ _ _ _ _ _ _ _ _ _ _ _ _ _
 72
    65
 73
     2
 40
0.000001
 49
0.000001
 49
-0.000000
  0
LTYPE
  2
CENTER
 70
    64
  3
____ _ ____ _ ____ _ ____ _ ____ _ ____ _ ____
 72
    65
 73
     4
 40
0.000008
 49
0.000005
 49
-0.000001
 49
0.000001
 49
-0.000001
  0
LTYPE
  2
PHANTOM
 70
    64
  3
_____ _ _ _____ _ _ _____ _ _ _____ _ _ ____
 72
    65
 73
     6
 40
0.000010
 49
0.000005
 49
-0.000001
 49
0.000001
 49
-0.000001
 49
0.000001
 49
-0.000001
  0
LTYPE
  2
DOT
 70
    64
  3
...............................................
 72
    65
 73
     2
 40
0.000001
 49
0.000000
 49
-0.000001
  0
LTYPE
  2
DASHDOT
 70
    64
  3
__ . __ . __ . __ . __ . __ . __ . __ . __ . __
 72
    65
 73
     4
 40
0.000004
 49
0.000002
 49
-0.000001
 49
0.000000
 49
-0.000001
  0
LTYPE
  2
BORDER
 70
    64
  3
__ __ . __ __ . __ __ . __ __ . __ __ . __ __
 72
    65
 73
     6
 40
0.000007
 49
0.000002
 49
-0.000001
 49
0.000002
 49
-0.000001
 49
0.000000
 49
-0.000001
  0
LTYPE
  2
DIVIDE
 70
    64
  3
__ . . __ . . __ . . __ . . __ . . __ . . __
 72
    65
 73
     6
 40
0.000005
 49
0.000002
 49
-0.000001
 49
0.000000
 49
-0.000001
 49
0.000000
 49
-0.000001
  0
LTYPE
  2
DOTDOT
 70
    64
  3
 . .  . .  . .  . .  . .  . . 
 72
    65
 73
     5
 40
0.000002
 49
-0.000001
 49
0.000000
 49
-0.000001
 49
0.000000
 49
-0.000001
  0
ENDTAB
  0
TABLE
  2
STYLE
 70
     0
  0
ENDTAB
  0
TABLE
  2
LAYER
 70
     3
  0
LAYER
  2
FOREGROUND
 70
    64
 62
     7
  6
CONTINUOUS
  0
LAYER
  2
BACKGROUND
 70
    65
 62
    -7
  6
CONTINUOUS
  0
LAYER
  2
CAMADA_1
 70
    64
 62
     7
  6
CONTINUOUS
  0
ENDTAB
  0
ENDSEC
  0
SECTION
  2
ENTITIES
  0
POLYLINE
  8
CAMADA_1
 62
     1
  6
CONTINUOUS
 66
     1
 40
0.003000
 41
0.003000
  0
VERTEX
  8
CAMADA_1
 62
     1
  6
CONTINUOUS
 10
-0.046063
 20
0.228626
  0
VERTEX
  8
CAMADA_1
 62
     1
  6
CONTINUOUS
 10
-0.046063
 20
0.652449
  0
VERTEX
  8
CAMADA_1
 62
     1
  6
CONTINUOUS
 10
-0.036257
 20
0.652143
  0
VERTEX
  8
CAMADA_1
 62
     1
  6
CONTINUOUS
 10
-0.026459
 20
0.651680
  0
VERTEX
  8
CAMADA_1
 62
     1
  6
CONTINUOUS
 10
-0.016669
 20
0.651061
  0
VERTEX
  8
CAMADA_1
 62
     1
  6
CONTINUOUS
 10
-0.006891
 20
0.650286
  0
VERTEX
  8
CAMADA_1
 62
     1
  6
CONTINUOUS
 10
0.002874
 20
0.649353
  0
VERTEX
  8
CAMADA_1
 62
     1
  6
CONTINUOUS
 10
0.012624
 20
0.648263
  0
VERTEX
  8
CAMADA_1
 62
     1
  6
CONTINUOUS
 10
0.022357
 20
0.647016
  0
VERTEX
  8
CAMADA_1
 62
     1
  6
CONTINUOUS
 10
0.032070
 20
0.645610
  0
VERTEX
  8
CAMADA_1
 62
     1
  6
CONTINUOUS
 10
0.041763
 20
0.644046
  0
VERTEX
  8
CAMADA_1
 62
     1
  6
CONTINUOUS
 10
0.051432
 20
0.642324
  0
VERTEX
  8
CAMADA_1
 62
     1
  6
CONTINUOUS
 10
0.061075
 20
0.640443
  0
VERTEX
  8
CAMADA_1
 62
     1
  6
CONTINUOUS
 10
0.070692
 20
0.638402
  0
VERTEX
  8
CAMADA_1
 62
     1
  6
CONTINUOUS
 10
0.080279
 20
0.636202
  0
VERTEX
  8
CAMADA_1
 62
     1
  6
CONTINUOUS
 10
0.089835
 20
0.633843
  0
VERTEX
  8
CAMADA_1
 62
     1
  6
CONTINUOUS
 10
0.099358
 20
0.631323
  0
VERTEX
  8
CAMADA_1
 62
     1
  6
CONTINUOUS
 10
0.098357
 20
0.621655
  0
VERTEX
  8
CAMADA_1
 62
     1
  6
CONTINUOUS
 10
0.098596
 20
0.612088
  0
VERTEX
  8
CAMADA_1
 62
     1
  6
CONTINUOUS
 10
0.100028
 20
0.602724
  0
VERTEX
  8
CAMADA_1
 62
     1
  6
CONTINUOUS
 10
0.102605
 20
0.593664
  0
VERTEX
  8
CAMADA_1
 62
     1
  6
CONTINUOUS
 10
0.106282
 20
0.585007
  0
VERTEX
  8
CAMADA_1
 62
     1
  6
CONTINUOUS
 10
0.111010
 20
0.576856
  0
VERTEX
  8
CAMADA_1
 62
     1
  6
CONTINUOUS
 10
0.116744
 20
0.569310
  0
VERTEX
  8
CAMADA_1
 62
     1
  6
CONTINUOUS
 10
0.123436
 20
0.562472
  0
VERTEX
  8
CAMADA_1
 62
     1
  6
CONTINUOUS
 10
0.131039
 20
0.556441
  0
VERTEX
  8
CAMADA_1
 62
     1
  6
CONTINUOUS
 10
-0.009280
 20
0.220906
  0
VERTEX
  8
CAMADA_1
 62
     1
  6
CONTINUOUS
 10
-0.021417
 20
0.224373
  0
VERTEX
  8
CAMADA_1
 62
     1
  6
CONTINUOUS
 10
-0.033679
 20
0.226922
  0
VERTEX
  8
CAMADA_1
 62
     1
  6
CONTINUOUS
 10
-0.046063
 20
0.228626
  0
SEQEND
  8
0
  0
POLYLINE
  8
CAMADA_1
 62
     1
  6
CONTINUOUS
 66
     1
 40
0.003000
 41
0.003000
  0
VERTEX
  8
CAMADA_1
 62
     1
  6
CONTINUOUS
 10
-0.083724
 20
0.228626
  0
VERTEX
  8
CAMADA_1
 62
     1
  6
CONTINUOUS
 10
-0.083724
 20
0.651878
  0
VERTEX
  8
CAMADA_1
 62
     1
  6
CONTINUOUS
 10
-0.093250
 20
0.651304
  0
VERTEX
  8
CAMADA_1
 62
     1
  6
CONTINUOUS
 10
-0.102754
 20
0.650553
  0
VERTEX
  8
CAMADA_1
 62
     1
  6
CONTINUOUS
 10
-0.112233
 20
0.649626
  0
VERTEX
  8
CAMADA_1
 62
     1
  6
CONTINUOUS
 10
-0.121686
 20
0.648524
  0
VERTEX
  8
CAMADA_1
 62
     1
  6
CONTINUOUS
 10
-0.131109
 20
0.647248
  0
VERTEX
  8
CAMADA_1
 62
     1
  6
CONTINUOUS
 10
-0.140503
 20
0.645797
  0
VERTEX
  8
CAMADA_1
 62
     1
  6
CONTINUOUS
 10
-0.149863
 20
0.644173
  0
VERTEX
  8
CAMADA_1
 62
     1
  6
CONTINUOUS
 10
-0.159188
 20
0.642377
  0
VERTEX
  8
CAMADA_1
 62
     1
  6
CONTINUOUS
 10
-0.168476
 20
0.640408
  0
VERTEX
  8
CAMADA_1
 62
     1
  6
CONTINUOUS
 10
-0.177726
 20
0.638268
  0
VERTEX
  8
CAMADA_1
 62
     1
  6
CONTINUOUS
 10
-0.186934
 20
0.635956
  0
VERTEX
  8
CAMADA_1
 62
     1
  6
CONTINUOUS
 10
-0.196099
 20
0.633475
  0
VERTEX
  8
CAMADA_1
 62
     1
  6
CONTINUOUS
 10
-0.205219
 20
0.630824
  0
VERTEX
  8
CAMADA_1
 62
     1
  6
CONTINUOUS
 10
-0.214291
 20
0.628004
  0
VERTEX
  8
CAMADA_1
 62
     1
  6
CONTINUOUS
 10
-0.223314
 20
0.625015
  0
VERTEX
  8
CAMADA_1
 62
     1
  6
CONTINUOUS
 10
-0.232285
 20
0.621859
  0
VERTEX
  8
CAMADA_1
 62
     1
  6
CONTINUOUS
 10
-0.241202
 20
0.618536
  0
VERTEX
  8
CAMADA_1
 62
     1
  6
CONTINUOUS
 10
-0.250064
 20
0.615046
  0
VERTEX
  8
CAMADA_1
 62
     1
  6
CONTINUOUS
 10
-0.258869
 20
0.611390
  0
VERTEX
  8
CAMADA_1
 62
     1
  6
CONTINUOUS
 10
-0.267613
 20
0.607569
  0
VERTEX
  8
CAMADA_1
 62
     1
  6
CONTINUOUS
 10
-0.276295
 20
0.603583
  0
VERTEX
  8
CAMADA_1
 62
     1
  6
CONTINUOUS
 10
-0.276295
 20
0.603583
  0
VERTEX
  8
CAMADA_1
 62
     1
  6
CONTINUOUS
 10
-0.119366
 20
0.221280
  0
VERTEX
  8
CAMADA_1
 62
     1
  6
CONTINUOUS
 10
-0.107732
 20
0.224612
  0
VERTEX
  8
CAMADA_1
 62
     1
  6
CONTINUOUS
 10
-0.095852
 20
0.227063
  0
VERTEX
  8
CAMADA_1
 62
     1
  6
CONTINUOUS
 10
-0.083724
 20
0.228626
  0
SEQEND
  8
0
  0
POLYLINE
  8
CAMADA_1
 62
     1
  6
CONTINUOUS
 66
     1
 40
0.003000
 41
0.003000
  0
VERTEX
  8
CAMADA_1
 62
     1
  6
CONTINUOUS
 10
-0.147169
 20
0.210067
  0
VERTEX
  8
CAMADA_1
 62
     1
  6
CONTINUOUS
 10
-0.303339
 20
0.590291
  0
VERTEX
  8
CAMADA_1
 62
     1
  6
CONTINUOUS
 10
-0.311867
 20
0.585828
  0
VERTEX
  8
CAMADA_1
 62
     1
  6
CONTINUOUS
 10
-0.320314
 20
0.581219
  0
VERTEX
  8
CAMADA_1
 62
     1
  6
CONTINUOUS
 10
-0.328678
 20
0.576467
  0
VERTEX
  8
CAMADA_1
 62
     1
  6
CONTINUOUS
 10
-0.336956
 20
0.571573
  0
VERTEX
  8
CAMADA_1
 62
     1
  6
CONTINUOUS
 10
-0.345147
 20
0.566538
  0
VERTEX
  8
CAMADA_1
 62
     1
  6
CONTINUOUS
 10
-0.353248
 20
0.561365
  0
VERTEX
  8
CAMADA_1
 62
     1
  6
CONTINUOUS
 10
-0.361258
 20
0.556054
  0
VERTEX
  8
CAMADA_1
 62
     1
  6
CONTINUOUS
 10
-0.369175
 20
0.550607
  0
VERTEX
  8
CAMADA_1
 62
     1
  6
CONTINUOUS
 10
-0.376996
 20
0.545025
  0
VERTEX
  8
CAMADA_1
 62
     1
  6
CONTINUOUS
 10
-0.384721
 20
0.539311
  0
VERTEX
  8
CAMADA_1
 62
     1
  6
CONTINUOUS
 10
-0.392346
 20
0.533465
  0
VERTEX
  8
CAMADA_1
 62
     1
  6
CONTINUOUS
 10
-0.399870
 20
0.527488
  0
VERTEX
  8
CAMADA_1
 62
     1
  6
CONTINUOUS
 10
-0.407291
 20
0.521383
  0
VERTEX
  8
CAMADA_1
 62
     1
  6
CONTINUOUS
 10
-0.414607
 20
0.515151
  0
VERTEX
  8
CAMADA_1
 62
     1
  6
CONTINUOUS
 10
-0.421816
 20
0.508793
  0
VERTEX
  8
CAMADA_1
 62
     1
  6
CONTINUOUS
 10
-0.428916
 20
0.502310
  0
VERTEX
  8
CAMADA_1
 62
     1
  6
CONTINUOUS
 10
-0.435905
 20
0.495705
  0
VERTEX
  8
CAMADA_1
 62
     1
  6
CONTINUOUS
 10
-0.442781
 20
0.488979
  0
VERTEX
  8
CAMADA_1
 62
     1
  6
CONTINUOUS
 10
-0.449542
 20
0.482133
  0
VERTEX
  8
CAMADA_1
 62
     1
  6
CONTINUOUS
 10
-0.456187
 20
0.475168
  0
VERTEX
  8
CAMADA_1
 62
     1
  6
CONTINUOUS
 10
-0.462713
 20
0.468087
  0
VERTEX
  8
CAMADA_1
 62
     1
  6
CONTINUOUS
 10
-0.462713
 20
0.468087
  0
VERTEX
  8
CAMADA_1
 62
     1
  6
CONTINUOUS
 10
-0.181701
 20
0.187051
  0
VERTEX
  8
CAMADA_1
 62
     1
  6
CONTINUOUS
 10
-0.170821
 20
0.195534
  0
VERTEX
  8
CAMADA_1
 62
     1
  6
CONTINUOUS
 10
-0.159307
 20
0.203221
  0
VERTEX
  8
CAMADA_1
 62
     1
  6
CONTINUOUS
 10
-0.147169
 20
0.210067
  0
SEQEND
  8
0
  0
POLYLINE
  8
CAMADA_1
 62
     1
  6
CONTINUOUS
 66
     1
 40
0.003000
 41
0.003000
  0
VERTEX
  8
CAMADA_1
 62
     1
  6
CONTINUOUS
 10
-0.482996
 20
0.445299
  0
VERTEX
  8
CAMADA_1
 62
     1
  6
CONTINUOUS
 10
-0.489117
 20
0.437885
  0
VERTEX
  8
CAMADA_1
 62
     1
  6
CONTINUOUS
 10
-0.495087
 20
0.430358
  0
VERTEX
  8
CAMADA_1
 62
     1
  6
CONTINUOUS
 10
-0.500903
 20
0.422720
  0
VERTEX
  8
CAMADA_1
 62
     1
  6
CONTINUOUS
 10
-0.506566
 20
0.414975
  0
VERTEX
  8
CAMADA_1
 62
     1
  6
CONTINUOUS
 10
-0.512073
 20
0.407124
  0
VERTEX
  8
CAMADA_1
 62
     1
  6
CONTINUOUS
 10
-0.517423
 20
0.399171
  0
VERTEX
  8
CAMADA_1
 62
     1
  6
CONTINUOUS
 10
-0.522615
 20
0.391118
  0
VERTEX
  8
CAMADA_1
 62
     1
  6
CONTINUOUS
 10
-0.527647
 20
0.382968
  0
VERTEX
  8
CAMADA_1
 62
     1
  6
CONTINUOUS
 10
-0.532518
 20
0.374724
  0
VERTEX
  8
CAMADA_1
 62
     1
  6
CONTINUOUS
 10
-0.537226
 20
0.366388
  0
VERTEX
  8
CAMADA_1
 62
     1
  6
CONTINUOUS
 10
-0.541770
 20
0.357963
  0
VERTEX
  8
CAMADA_1
 62
     1
  6
CONTINUOUS
 10
-0.546148
 20
0.349451
  0
VERTEX
  8
CAMADA_1
 62
     1
  6
CONTINUOUS
 10
-0.550360
 20
0.340856
  0
VERTEX
  8
CAMADA_1
 62
     1
  6
CONTINUOUS
 10
-0.554403
 20
0.332180
  0
VERTEX
  8
CAMADA_1
 62
     1
  6
CONTINUOUS
 10
-0.558276
 20
0.323425
  0
VERTEX
  8
CAMADA_1
 62
     1
  6
CONTINUOUS
 10
-0.561979
 20
0.314595
  0
VERTEX
  8
CAMADA_1
 62
     1
  6
CONTINUOUS
 10
-0.565508
 20
0.305691
  0
VERTEX
  8
CAMADA_1
 62
     1
  6
CONTINUOUS
 10
-0.568864
 20
0.296718
  0
VERTEX
  8
CAMADA_1
 62
     1
  6
CONTINUOUS
 10
-0.572044
 20
0.287677
  0
VERTEX
  8
CAMADA_1
 62
     1
  6
CONTINUOUS
 10
-0.575047
 20
0.278571
  0
VERTEX
  8
CAMADA_1
 62
     1
  6
CONTINUOUS
 10
-0.225736
 20
0.132413
  0
VERTEX
  8
CAMADA_1
 62
     1
  6
CONTINUOUS
 10
-0.219215
 20
0.144077
  0
VERTEX
  8
CAMADA_1
 62
     1
  6
CONTINUOUS
 10
-0.211768
 20
0.155244
  0
VERTEX
  8
CAMADA_1
 62
     1
  6
CONTINUOUS
 10
-0.203480
 20
0.165787
  0
VERTEX
  8
CAMADA_1
 62
     1
  6
CONTINUOUS
 10
-0.482996
 20
0.445299
  0
SEQEND
  8
0
  0
POLYLINE
  8
CAMADA_1
 62
     1
  6
CONTINUOUS
 66
     1
 40
0.003000
 41
0.003000
  0
VERTEX
  8
CAMADA_1
 62
     1
  6
CONTINUOUS
 10
-0.237453
 20
0.104311
  0
VERTEX
  8
CAMADA_1
 62
     1
  6
CONTINUOUS
 10
-0.581862
 20
0.248406
  0
VERTEX
  8
CAMADA_1
 62
     1
  6
CONTINUOUS
 10
-0.582976
 20
0.239176
  0
VERTEX
  8
CAMADA_1
 62
     1
  6
CONTINUOUS
 10
-0.583950
 20
0.229936
  0
VERTEX
  8
CAMADA_1
 62
     1
  6
CONTINUOUS
 10
-0.584782
 20
0.220689
  0
VERTEX
  8
CAMADA_1
 62
     1
  6
CONTINUOUS
 10
-0.585473
 20
0.211435
  0
VERTEX
  8
CAMADA_1
 62
     1
  6
CONTINUOUS
 10
-0.586023
 20
0.202176
  0
VERTEX
  8
CAMADA_1
 62
     1
  6
CONTINUOUS
 10
-0.586432
 20
0.192914
  0
VERTEX
  8
CAMADA_1
 62
     1
  6
CONTINUOUS
 10
-0.586699
 20
0.183650
  0
VERTEX
  8
CAMADA_1
 62
     1
  6
CONTINUOUS
 10
-0.586826
 20
0.174386
  0
VERTEX
  8
CAMADA_1
 62
     1
  6
CONTINUOUS
 10
-0.586811
 20
0.165123
  0
VERTEX
  8
CAMADA_1
 62
     1
  6
CONTINUOUS
 10
-0.586655
 20
0.155863
  0
VERTEX
  8
CAMADA_1
 62
     1
  6
CONTINUOUS
 10
-0.586358
 20
0.146608
  0
VERTEX
  8
CAMADA_1
 62
     1
  6
CONTINUOUS
 10
-0.585919
 20
0.137358
  0
VERTEX
  8
CAMADA_1
 62
     1
  6
CONTINUOUS
 10
-0.585339
 20
0.128116
  0
VERTEX
  8
CAMADA_1
 62
     1
  6
CONTINUOUS
 10
-0.584618
 20
0.118883
  0
VERTEX
  8
CAMADA_1
 62
     1
  6
CONTINUOUS
 10
-0.583755
 20
0.109661
  0
VERTEX
  8
CAMADA_1
 62
     1
  6
CONTINUOUS
 10
-0.582751
 20
0.100451
  0
VERTEX
  8
CAMADA_1
 62
     1
  6
CONTINUOUS
 10
-0.581605
 20
0.091254
  0
VERTEX
  8
CAMADA_1
 62
     1
  6
CONTINUOUS
 10
-0.580318
 20
0.082073
  0
VERTEX
  8
CAMADA_1
 62
     1
  6
CONTINUOUS
 10
-0.578889
 20
0.072909
  0
VERTEX
  8
CAMADA_1
 62
     1
  6
CONTINUOUS
 10
-0.577319
 20
0.063764
  0
VERTEX
  8
CAMADA_1
 62
     1
  6
CONTINUOUS
 10
-0.245551
 20
0.063764
  0
VERTEX
  8
CAMADA_1
 62
     1
  6
CONTINUOUS
 10
-0.243872
 20
0.077462
  0
VERTEX
  8
CAMADA_1
 62
     1
  6
CONTINUOUS
 10
-0.241143
 20
0.090990
  0
VERTEX
  8
CAMADA_1
 62
     1
  6
CONTINUOUS
 10
-0.237453
 20
0.104311
  0
SEQEND
  8
0
  0
POLYLINE
  8
CAMADA_1
 62
     1
  6
CONTINUOUS
 66
     1
 40
0.003000
 41
0.003000
  0
VERTEX
  8
CAMADA_1
 62
     1
  6
CONTINUOUS
 10
-0.245181
 20
0.033630
  0
VERTEX
  8
CAMADA_1
 62
     1
  6
CONTINUOUS
 10
-0.568469
 20
0.033630
  0
VERTEX
  8
CAMADA_1
 62
     1
  6
CONTINUOUS
 10
-0.564945
 20
0.024673
  0
VERTEX
  8
CAMADA_1
 62
     1
  6
CONTINUOUS
 10
-0.561301
 20
0.015771
  0
VERTEX
  8
CAMADA_1
 62
     1
  6
CONTINUOUS
 10
-0.557537
 20
0.006925
  0
VERTEX
  8
CAMADA_1
 62
     1
  6
CONTINUOUS
 10
-0.553655
 20
-0.001864
  0
VERTEX
  8
CAMADA_1
 62
     1
  6
CONTINUOUS
 10
-0.549656
 20
-0.010596
  0
VERTEX
  8
CAMADA_1
 62
     1
  6
CONTINUOUS
 10
-0.545540
 20
-0.019270
  0
VERTEX
  8
CAMADA_1
 62
     1
  6
CONTINUOUS
 10
-0.541309
 20
-0.027886
  0
VERTEX
  8
CAMADA_1
 62
     1
  6
CONTINUOUS
 10
-0.536962
 20
-0.036442
  0
VERTEX
  8
CAMADA_1
 62
     1
  6
CONTINUOUS
 10
-0.532502
 20
-0.044938
  0
VERTEX
  8
CAMADA_1
 62
     1
  6
CONTINUOUS
 10
-0.527928
 20
-0.053372
  0
VERTEX
  8
CAMADA_1
 62
     1
  6
CONTINUOUS
 10
-0.523243
 20
-0.061745
  0
VERTEX
  8
CAMADA_1
 62
     1
  6
CONTINUOUS
 10
-0.518446
 20
-0.070056
  0
VERTEX
  8
CAMADA_1
 62
     1
  6
CONTINUOUS
 10
-0.513539
 20
-0.078303
  0
VERTEX
  8
CAMADA_1
 62
     1
  6
CONTINUOUS
 10
-0.508523
 20
-0.086487
  0
VERTEX
  8
CAMADA_1
 62
     1
  6
CONTINUOUS
 10
-0.503398
 20
-0.094605
  0
VERTEX
  8
CAMADA_1
 62
     1
  6
CONTINUOUS
 10
-0.498166
 20
-0.102659
  0
VERTEX
  8
CAMADA_1
 62
     1
  6
CONTINUOUS
 10
-0.492827
 20
-0.110646
  0
VERTEX
  8
CAMADA_1
 62
     1
  6
CONTINUOUS
 10
-0.237453
 20
-0.005780
  0
VERTEX
  8
CAMADA_1
 62
     1
  6
CONTINUOUS
 10
-0.240963
 20
0.007160
  0
VERTEX
  8
CAMADA_1
 62
     1
  6
CONTINUOUS
 10
-0.243558
 20
0.020310
  0
VERTEX
  8
CAMADA_1
 62
     1
  6
CONTINUOUS
 10
-0.245181
 20
0.033630
  0
SEQEND
  8
0
  0
POLYLINE
  8
CAMADA_1
 62
     1
  6
CONTINUOUS
 66
     1
 40
0.003000
 41
0.003000
  0
VERTEX
  8
CAMADA_1
 62
     1
  6
CONTINUOUS
 10
-0.202878
 20
-0.067996
  0
VERTEX
  8
CAMADA_1
 62
     1
  6
CONTINUOUS
 10
-0.211493
 20
-0.057113
  0
VERTEX
  8
CAMADA_1
 62
     1
  6
CONTINUOUS
 10
-0.219177
 20
-0.045605
  0
VERTEX
  8
CAMADA_1
 62
     1
  6
CONTINUOUS
 10
-0.225898
 20
-0.033472
  0
VERTEX
  8
CAMADA_1
 62
     1
  6
CONTINUOUS
 10
-0.472398
 20
-0.134563
  0
VERTEX
  8
CAMADA_1
 62
     1
  6
CONTINUOUS
 10
-0.465486
 20
-0.141337
  0
VERTEX
  8
CAMADA_1
 62
     1
  6
CONTINUOUS
 10
-0.458479
 20
-0.147999
  0
VERTEX
  8
CAMADA_1
 62
     1
  6
CONTINUOUS
 10
-0.451380
 20
-0.154550
  0
VERTEX
  8
CAMADA_1
 62
     1
  6
CONTINUOUS
 10
-0.444190
 20
-0.160991
  0
VERTEX
  8
CAMADA_1
 62
     1
  6
CONTINUOUS
 10
-0.436909
 20
-0.167321
  0
VERTEX
  8
CAMADA_1
 62
     1
  6
CONTINUOUS
 10
-0.429539
 20
-0.173539
  0
VERTEX
  8
CAMADA_1
 62
     1
  6
CONTINUOUS
 10
-0.422082
 20
-0.179647
  0
VERTEX
  8
CAMADA_1
 62
     1
  6
CONTINUOUS
 10
-0.414538
 20
-0.185645
  0
VERTEX
  8
CAMADA_1
 62
     1
  6
CONTINUOUS
 10
-0.406910
 20
-0.191532
  0
VERTEX
  8
CAMADA_1
 62
     1
  6
CONTINUOUS
 10
-0.399197
 20
-0.197308
  0
VERTEX
  8
CAMADA_1
 62
     1
  6
CONTINUOUS
 10
-0.391402
 20
-0.202974
  0
VERTEX
  8
CAMADA_1
 62
     1
  6
CONTINUOUS
 10
-0.383527
 20
-0.208530
  0
VERTEX
  8
CAMADA_1
 62
     1
  6
CONTINUOUS
 10
-0.375571
 20
-0.213975
  0
VERTEX
  8
CAMADA_1
 62
     1
  6
CONTINUOUS
 10
-0.367537
 20
-0.219310
  0
VERTEX
  8
CAMADA_1
 62
     1
  6
CONTINUOUS
 10
-0.359425
 20
-0.224535
  0
VERTEX
  8
CAMADA_1
 62
     1
  6
CONTINUOUS
 10
-0.202878
 20
-0.067996
  0
SEQEND
  8
0
  0
POLYLINE
  8
CAMADA_1
 62
     1
  6
CONTINUOUS
 66
     1
 40
0.003000
 41
0.003000
  0
VERTEX
  8
CAMADA_1
 62
     1
  6
CONTINUOUS
 10
-0.006858
 20
-0.293945
  0
VERTEX
  8
CAMADA_1
 62
     1
  6
CONTINUOUS
 10
-0.007432
 20
-0.284242
  0
VERTEX
  8
CAMADA_1
 62
     1
  6
CONTINUOUS
 10
-0.006793
 20
-0.274694
  0
VERTEX
  8
CAMADA_1
 62
     1
  6
CONTINUOUS
 10
-0.004985
 20
-0.265397
  0
VERTEX
  8
CAMADA_1
 62
     1
  6
CONTINUOUS
 10
-0.002055
 20
-0.256449
  0
VERTEX
  8
CAMADA_1
 62
     1
  6
CONTINUOUS
 10
0.001953
 20
-0.247948
  0
VERTEX
  8
CAMADA_1
 62
     1
  6
CONTINUOUS
 10
0.006993
 20
-0.239992
  0
VERTEX
  8
CAMADA_1
 62
     1
  6
CONTINUOUS
 10
0.013021
 20
-0.232678
  0
VERTEX
  8
CAMADA_1
 62
     1
  6
CONTINUOUS
 10
0.019991
 20
-0.226105
  0
VERTEX
  8
CAMADA_1
 62
     1
  6
CONTINUOUS
 10
0.027858
 20
-0.220370
  0
VERTEX
  8
CAMADA_1
 62
     1
  6
CONTINUOUS
 10
-0.011197
 20
-0.123815
  0
VERTEX
  8
CAMADA_1
 62
     1
  6
CONTINUOUS
 10
-0.020089
 20
-0.126324
  0
VERTEX
  8
CAMADA_1
 62
     1
  6
CONTINUOUS
 10
-0.029043
 20
-0.128367
  0
VERTEX
  8
CAMADA_1
 62
     1
  6
CONTINUOUS
 10
-0.038043
 20
-0.129947
  0
VERTEX
  8
CAMADA_1
 62
     1
  6
CONTINUOUS
 10
-0.047072
 20
-0.131068
  0
VERTEX
  8
CAMADA_1
 62
     1
  6
CONTINUOUS
 10
-0.056113
 20
-0.131731
  0
VERTEX
  8
CAMADA_1
 62
     1
  6
CONTINUOUS
 10
-0.065148
 20
-0.131941
  0
VERTEX
  8
CAMADA_1
 62
     1
  6
CONTINUOUS
 10
-0.074162
 20
-0.131701
  0
VERTEX
  8
CAMADA_1
 62
     1
  6
CONTINUOUS
 10
-0.083138
 20
-0.131015
  0
VERTEX
  8
CAMADA_1
 62
     1
  6
CONTINUOUS
 10
-0.092057
 20
-0.129884
  0
VERTEX
  8
CAMADA_1
 62
     1
  6
CONTINUOUS
 10
-0.100905
 20
-0.128313
  0
VERTEX
  8
CAMADA_1
 62
     1
  6
CONTINUOUS
 10
-0.109664
 20
-0.126306
  0
VERTEX
  8
CAMADA_1
 62
     1
  6
CONTINUOUS
 10
-0.118316
 20
-0.123864
  0
VERTEX
  8
CAMADA_1
 62
     1
  6
CONTINUOUS
 10
-0.126846
 20
-0.120992
  0
VERTEX
  8
CAMADA_1
 62
     1
  6
CONTINUOUS
 10
-0.135236
 20
-0.117692
  0
VERTEX
  8
CAMADA_1
 62
     1
  6
CONTINUOUS
 10
-0.143470
 20
-0.113968
  0
VERTEX
  8
CAMADA_1
 62
     1
  6
CONTINUOUS
 10
-0.151531
 20
-0.109824
  0
VERTEX
  8
CAMADA_1
 62
     1
  6
CONTINUOUS
 10
-0.159401
 20
-0.105262
  0
VERTEX
  8
CAMADA_1
 62
     1
  6
CONTINUOUS
 10
-0.167065
 20
-0.100285
  0
VERTEX
  8
CAMADA_1
 62
     1
  6
CONTINUOUS
 10
-0.174505
 20
-0.094898
  0
VERTEX
  8
CAMADA_1
 62
     1
  6
CONTINUOUS
 10
-0.181705
 20
-0.089102
  0
VERTEX
  8
CAMADA_1
 62
     1
  6
CONTINUOUS
 10
-0.332587
 20
-0.239996
  0
VERTEX
  8
CAMADA_1
 62
     1
  6
CONTINUOUS
 10
-0.324465
 20
-0.244219
  0
VERTEX
  8
CAMADA_1
 62
     1
  6
CONTINUOUS
 10
-0.316280
 20
-0.248293
  0
VERTEX
  8
CAMADA_1
 62
     1
  6
CONTINUOUS
 10
-0.308035
 20
-0.252217
  0
VERTEX
  8
CAMADA_1
 62
     1
  6
CONTINUOUS
 10
-0.299733
 20
-0.255991
  0
VERTEX
  8
CAMADA_1
 62
     1
  6
CONTINUOUS
 10
-0.291374
 20
-0.259615
  0
VERTEX
  8
CAMADA_1
 62
     1
  6
CONTINUOUS
 10
-0.282961
 20
-0.263088
  0
VERTEX
  8
CAMADA_1
 62
     1
  6
CONTINUOUS
 10
-0.274496
 20
-0.266410
  0
VERTEX
  8
CAMADA_1
 62
     1
  6
CONTINUOUS
 10
-0.265982
 20
-0.269580
  0
VERTEX
  8
CAMADA_1
 62
     1
  6
CONTINUOUS
 10
-0.257420
 20
-0.272599
  0
VERTEX
  8
CAMADA_1
 62
     1
  6
CONTINUOUS
 10
-0.248812
 20
-0.275466
  0
VERTEX
  8
CAMADA_1
 62
     1
  6
CONTINUOUS
 10
-0.240161
 20
-0.278180
  0
VERTEX
  8
CAMADA_1
 62
     1
  6
CONTINUOUS
 10
-0.231468
 20
-0.280741
  0
VERTEX
  8
CAMADA_1
 62
     1
  6
CONTINUOUS
 10
-0.222737
 20
-0.283148
  0
VERTEX
  8
CAMADA_1
 62
     1
  6
CONTINUOUS
 10
-0.213968
 20
-0.285402
  0
VERTEX
  8
CAMADA_1
 62
     1
  6
CONTINUOUS
 10
-0.205164
 20
-0.287502
  0
VERTEX
  8
CAMADA_1
 62
     1
  6
CONTINUOUS
 10
-0.196327
 20
-0.289447
  0
VERTEX
  8
CAMADA_1
 62
     1
  6
CONTINUOUS
 10
-0.187459
 20
-0.291238
  0
VERTEX
  8
CAMADA_1
 62
     1
  6
CONTINUOUS
 10
-0.178563
 20
-0.292873
  0
VERTEX
  8
CAMADA_1
 62
     1
  6
CONTINUOUS
 10
-0.169640
 20
-0.294353
  0
VERTEX
  8
CAMADA_1
 62
     1
  6
CONTINUOUS
 10
-0.160692
 20
-0.295676
  0
VERTEX
  8
CAMADA_1
 62
     1
  6
CONTINUOUS
 10
-0.151722
 20
-0.296844
  0
VERTEX
  8
CAMADA_1
 62
     1
  6
CONTINUOUS
 10
-0.142731
 20
-0.297854
  0
VERTEX
  8
CAMADA_1
 62
     1
  6
CONTINUOUS
 10
-0.133722
 20
-0.298708
  0
VERTEX
  8
CAMADA_1
 62
     1
  6
CONTINUOUS
 10
-0.124697
 20
-0.299403
  0
VERTEX
  8
CAMADA_1
 62
     1
  6
CONTINUOUS
 10
-0.115659
 20
-0.299941
  0
VERTEX
  8
CAMADA_1
 62
     1
  6
CONTINUOUS
 10
-0.106608
 20
-0.300321
  0
VERTEX
  8
CAMADA_1
 62
     1
  6
CONTINUOUS
 10
-0.097547
 20
-0.300542
  0
VERTEX
  8
CAMADA_1
 62
     1
  6
CONTINUOUS
 10
-0.088478
 20
-0.300604
  0
VERTEX
  8
CAMADA_1
 62
     1
  6
CONTINUOUS
 10
-0.079404
 20
-0.300507
  0
VERTEX
  8
CAMADA_1
 62
     1
  6
CONTINUOUS
 10
-0.070326
 20
-0.300250
  0
VERTEX
  8
CAMADA_1
 62
     1
  6
CONTINUOUS
 10
-0.061247
 20
-0.299833
  0
VERTEX
  8
CAMADA_1
 62
     1
  6
CONTINUOUS
 10
-0.052168
 20
-0.299255
  0
VERTEX
  8
CAMADA_1
 62
     1
  6
CONTINUOUS
 10
-0.043092
 20
-0.298516
  0
VERTEX
  8
CAMADA_1
 62
     1
  6
CONTINUOUS
 10
-0.034021
 20
-0.297616
  0
VERTEX
  8
CAMADA_1
 62
     1
  6
CONTINUOUS
 10
-0.024957
 20
-0.296555
  0
VERTEX
  8
CAMADA_1
 62
     1
  6
CONTINUOUS
 10
-0.015902
 20
-0.295331
  0
VERTEX
  8
CAMADA_1
 62
     1
  6
CONTINUOUS
 10
-0.006858
 20
-0.293945
  0
VERTEX
  8
CAMADA_1
 62
     1
  6
CONTINUOUS
 10
-0.006858
 20
-0.293945
  0
SEQEND
  8
0
  0
POLYLINE
  8
CAMADA_1
 62
     1
  6
CONTINUOUS
 66
     1
 40
0.003000
 41
0.003000
  0
VERTEX
  8
CAMADA_1
 62
     1
  6
CONTINUOUS
 10
0.016358
 20
-0.112366
  0
VERTEX
  8
CAMADA_1
 62
     1
  6
CONTINUOUS
 10
0.055587
 20
-0.209677
  0
VERTEX
  8
CAMADA_1
 62
     1
  6
CONTINUOUS
 10
0.065682
 20
-0.208670
  0
VERTEX
  8
CAMADA_1
 62
     1
  6
CONTINUOUS
 10
0.075651
 20
-0.209006
  0
VERTEX
  8
CAMADA_1
 62
     1
  6
CONTINUOUS
 10
0.085381
 20
-0.210630
  0
VERTEX
  8
CAMADA_1
 62
     1
  6
CONTINUOUS
 10
0.094756
 20
-0.213488
  0
VERTEX
  8
CAMADA_1
 62
     1
  6
CONTINUOUS
 10
0.103665
 20
-0.217525
  0
VERTEX
  8
CAMADA_1
 62
     1
  6
CONTINUOUS
 10
0.111992
 20
-0.222688
  0
VERTEX
  8
CAMADA_1
 62
     1
  6
CONTINUOUS
 10
0.119624
 20
-0.228920
  0
VERTEX
  8
CAMADA_1
 62
     1
  6
CONTINUOUS
 10
0.126449
 20
-0.236168
  0
VERTEX
  8
CAMADA_1
 62
     1
  6
CONTINUOUS
 10
0.132350
 20
-0.244378
  0
VERTEX
  8
CAMADA_1
 62
     1
  6
CONTINUOUS
 10
0.142401
 20
-0.239580
  0
VERTEX
  8
CAMADA_1
 62
     1
  6
CONTINUOUS
 10
0.152405
 20
-0.234692
  0
VERTEX
  8
CAMADA_1
 62
     1
  6
CONTINUOUS
 10
0.162361
 20
-0.229713
  0
VERTEX
  8
CAMADA_1
 62
     1
  6
CONTINUOUS
 10
0.172272
 20
-0.224643
  0
VERTEX
  8
CAMADA_1
 62
     1
  6
CONTINUOUS
 10
0.182138
 20
-0.219480
  0
VERTEX
  8
CAMADA_1
 62
     1
  6
CONTINUOUS
 10
0.051815
 20
-0.088961
  0
VERTEX
  8
CAMADA_1
 62
     1
  6
CONTINUOUS
 10
0.040572
 20
-0.097754
  0
VERTEX
  8
CAMADA_1
 62
     1
  6
CONTINUOUS
 10
0.028738
 20
-0.105583
  0
VERTEX
  8
CAMADA_1
 62
     1
  6
CONTINUOUS
 10
0.016358
 20
-0.112366
  0
SEQEND
  8
0
  0
POLYLINE
  8
CAMADA_1
 62
     1
  6
CONTINUOUS
 66
     1
 40
0.003000
 41
0.003000
  0
VERTEX
  8
CAMADA_1
 62
     1
  6
CONTINUOUS
 10
0.485291
 20
-0.005571
  0
VERTEX
  8
CAMADA_1
 62
     1
  6
CONTINUOUS
 10
0.477740
 20
0.003037
  0
VERTEX
  8
CAMADA_1
 62
     1
  6
CONTINUOUS
 10
0.471568
 20
0.012634
  0
VERTEX
  8
CAMADA_1
 62
     1
  6
CONTINUOUS
 10
0.466881
 20
0.023081
  0
VERTEX
  8
CAMADA_1
 62
     1
  6
CONTINUOUS
 10
0.463783
 20
0.034240
  0
VERTEX
  8
CAMADA_1
 62
     1
  6
CONTINUOUS
 10
0.115047
 20
0.034240
  0
VERTEX
  8
CAMADA_1
 62
     1
  6
CONTINUOUS
 10
0.113932
 20
0.024051
  0
VERTEX
  8
CAMADA_1
 62
     1
  6
CONTINUOUS
 10
0.112240
 20
0.013979
  0
VERTEX
  8
CAMADA_1
 62
     1
  6
CONTINUOUS
 10
0.109982
 20
0.004047
  0
VERTEX
  8
CAMADA_1
 62
     1
  6
CONTINUOUS
 10
0.107170
 20
-0.005722
  0
VERTEX
  8
CAMADA_1
 62
     1
  6
CONTINUOUS
 10
0.103817
 20
-0.015305
  0
VERTEX
  8
CAMADA_1
 62
     1
  6
CONTINUOUS
 10
0.099933
 20
-0.024680
  0
VERTEX
  8
CAMADA_1
 62
     1
  6
CONTINUOUS
 10
0.095532
 20
-0.033823
  0
VERTEX
  8
CAMADA_1
 62
     1
  6
CONTINUOUS
 10
0.090624
 20
-0.042712
  0
VERTEX
  8
CAMADA_1
 62
     1
  6
CONTINUOUS
 10
0.085221
 20
-0.051323
  0
VERTEX
  8
CAMADA_1
 62
     1
  6
CONTINUOUS
 10
0.079336
 20
-0.059634
  0
VERTEX
  8
CAMADA_1
 62
     1
  6
CONTINUOUS
 10
0.072980
 20
-0.067622
  0
VERTEX
  8
CAMADA_1
 62
     1
  6
CONTINUOUS
 10
0.209720
 20
-0.204358
  0
VERTEX
  8
CAMADA_1
 62
     1
  6
CONTINUOUS
 10
0.217764
 20
-0.199868
  0
VERTEX
  8
CAMADA_1
 62
     1
  6
CONTINUOUS
 10
0.225778
 20
-0.195326
  0
VERTEX
  8
CAMADA_1
 62
     1
  6
CONTINUOUS
 10
0.233760
 20
-0.190734
  0
VERTEX
  8
CAMADA_1
 62
     1
  6
CONTINUOUS
 10
0.241711
 20
-0.186090
  0
VERTEX
  8
CAMADA_1
 62
     1
  6
CONTINUOUS
 10
0.249630
 20
-0.181396
  0
VERTEX
  8
CAMADA_1
 62
     1
  6
CONTINUOUS
 10
0.257518
 20
-0.176652
  0
VERTEX
  8
CAMADA_1
 62
     1
  6
CONTINUOUS
 10
0.265374
 20
-0.171858
  0
VERTEX
  8
CAMADA_1
 62
     1
  6
CONTINUOUS
 10
0.273198
 20
-0.167013
  0
VERTEX
  8
CAMADA_1
 62
     1
  6
CONTINUOUS
 10
0.280990
 20
-0.162119
  0
VERTEX
  8
CAMADA_1
 62
     1
  6
CONTINUOUS
 10
0.288750
 20
-0.157175
  0
VERTEX
  8
CAMADA_1
 62
     1
  6
CONTINUOUS
 10
0.296477
 20
-0.152181
  0
VERTEX
  8
CAMADA_1
 62
     1
  6
CONTINUOUS
 10
0.304171
 20
-0.147138
  0
VERTEX
  8
CAMADA_1
 62
     1
  6
CONTINUOUS
 10
0.311832
 20
-0.142046
  0
VERTEX
  8
CAMADA_1
 62
     1
  6
CONTINUOUS
 10
0.319460
 20
-0.136905
  0
VERTEX
  8
CAMADA_1
 62
     1
  6
CONTINUOUS
 10
0.327055
 20
-0.131716
  0
VERTEX
  8
CAMADA_1
 62
     1
  6
CONTINUOUS
 10
0.334616
 20
-0.126477
  0
VERTEX
  8
CAMADA_1
 62
     1
  6
CONTINUOUS
 10
0.342143
 20
-0.121191
  0
VERTEX
  8
CAMADA_1
 62
     1
  6
CONTINUOUS
 10
0.349636
 20
-0.115856
  0
VERTEX
  8
CAMADA_1
 62
     1
  6
CONTINUOUS
 10
0.357095
 20
-0.110473
  0
VERTEX
  8
CAMADA_1
 62
     1
  6
CONTINUOUS
 10
0.364520
 20
-0.105042
  0
VERTEX
  8
CAMADA_1
 62
     1
  6
CONTINUOUS
 10
0.371910
 20
-0.099564
  0
VERTEX
  8
CAMADA_1
 62
     1
  6
CONTINUOUS
 10
0.379266
 20
-0.094038
  0
VERTEX
  8
CAMADA_1
 62
     1
  6
CONTINUOUS
 10
0.386586
 20
-0.088464
  0
VERTEX
  8
CAMADA_1
 62
     1
  6
CONTINUOUS
 10
0.393872
 20
-0.082844
  0
VERTEX
  8
CAMADA_1
 62
     1
  6
CONTINUOUS
 10
0.401122
 20
-0.077176
  0
VERTEX
  8
CAMADA_1
 62
     1
  6
CONTINUOUS
 10
0.408336
 20
-0.071462
  0
VERTEX
  8
CAMADA_1
 62
     1
  6
CONTINUOUS
 10
0.415515
 20
-0.065701
  0
VERTEX
  8
CAMADA_1
 62
     1
  6
CONTINUOUS
 10
0.422657
 20
-0.059894
  0
VERTEX
  8
CAMADA_1
 62
     1
  6
CONTINUOUS
 10
0.429764
 20
-0.054041
  0
VERTEX
  8
CAMADA_1
 62
     1
  6
CONTINUOUS
 10
0.436834
 20
-0.048141
  0
VERTEX
  8
CAMADA_1
 62
     1
  6
CONTINUOUS
 10
0.443868
 20
-0.042196
  0
VERTEX
  8
CAMADA_1
 62
     1
  6
CONTINUOUS
 10
0.450865
 20
-0.036205
  0
VERTEX
  8
CAMADA_1
 62
     1
  6
CONTINUOUS
 10
0.457825
 20
-0.030168
  0
VERTEX
  8
CAMADA_1
 62
     1
  6
CONTINUOUS
 10
0.464748
 20
-0.024087
  0
VERTEX
  8
CAMADA_1
 62
     1
  6
CONTINUOUS
 10
0.471633
 20
-0.017960
  0
VERTEX
  8
CAMADA_1
 62
     1
  6
CONTINUOUS
 10
0.478481
 20
-0.011788
  0
VERTEX
  8
CAMADA_1
 62
     1
  6
CONTINUOUS
 10
0.485291
 20
-0.005571
  0
VERTEX
  8
CAMADA_1
 62
     1
  6
CONTINUOUS
 10
0.485291
 20
-0.005571
  0
SEQEND
  8
0
  0
POLYLINE
  8
CAMADA_1
 62
     1
  6
CONTINUOUS
 66
     1
 40
0.003000
 41
0.003000
  0
VERTEX
  8
CAMADA_1
 62
     1
  6
CONTINUOUS
 10
0.288736
 20
0.521646
  0
VERTEX
  8
CAMADA_1
 62
     1
  6
CONTINUOUS
 10
0.296844
 20
0.513363
  0
VERTEX
  8
CAMADA_1
 62
     1
  6
CONTINUOUS
 10
0.304771
 20
0.504921
  0
VERTEX
  8
CAMADA_1
 62
     1
  6
CONTINUOUS
 10
0.312522
 20
0.496320
  0
VERTEX
  8
CAMADA_1
 62
     1
  6
CONTINUOUS
 10
0.320099
 20
0.487564
  0
VERTEX
  8
CAMADA_1
 62
     1
  6
CONTINUOUS
 10
0.327507
 20
0.478652
  0
VERTEX
  8
CAMADA_1
 62
     1
  6
CONTINUOUS
 10
0.334748
 20
0.469587
  0
VERTEX
  8
CAMADA_1
 62
     1
  6
CONTINUOUS
 10
0.051843
 20
0.186673
  0
VERTEX
  8
CAMADA_1
 62
     1
  6
CONTINUOUS
 10
0.041224
 20
0.194917
  0
VERTEX
  8
CAMADA_1
 62
     1
  6
CONTINUOUS
 10
0.030098
 20
0.202323
  0
VERTEX
  8
CAMADA_1
 62
     1
  6
CONTINUOUS
 10
0.018461
 20
0.208937
  0
VERTEX
  8
CAMADA_1
 62
     1
  6
CONTINUOUS
 10
0.158787
 20
0.544457
  0
VERTEX
  8
CAMADA_1
 62
     1
  6
CONTINUOUS
 10
0.168569
 20
0.543146
  0
VERTEX
  8
CAMADA_1
 62
     1
  6
CONTINUOUS
 10
0.178324
 20
0.543136
  0
VERTEX
  8
CAMADA_1
 62
     1
  6
CONTINUOUS
 10
0.187934
 20
0.544385
  0
VERTEX
  8
CAMADA_1
 62
     1
  6
CONTINUOUS
 10
0.197281
 20
0.546850
  0
VERTEX
  8
CAMADA_1
 62
     1
  6
CONTINUOUS
 10
0.206249
 20
0.550490
  0
VERTEX
  8
CAMADA_1
 62
     1
  6
CONTINUOUS
 10
0.214719
 20
0.555263
  0
VERTEX
  8
CAMADA_1
 62
     1
  6
CONTINUOUS
 10
0.222572
 20
0.561125
  0
VERTEX
  8
CAMADA_1
 62
     1
  6
CONTINUOUS
 10
0.229693
 20
0.568035
  0
VERTEX
  8
CAMADA_1
 62
     1
  6
CONTINUOUS
 10
0.238528
 20
0.561953
  0
VERTEX
  8
CAMADA_1
 62
     1
  6
CONTINUOUS
 10
0.247240
 20
0.555672
  0
VERTEX
  8
CAMADA_1
 62
     1
  6
CONTINUOUS
 10
0.255823
 20
0.549203
  0
VERTEX
  8
CAMADA_1
 62
     1
  6
CONTINUOUS
 10
0.264270
 20
0.542555
  0
VERTEX
  8
CAMADA_1
 62
     1
  6
CONTINUOUS
 10
0.272575
 20
0.535740
  0
VERTEX
  8
CAMADA_1
 62
     1
  6
CONTINUOUS
 10
0.280732
 20
0.528766
  0
VERTEX
  8
CAMADA_1
 62
     1
  6
CONTINUOUS
 10
0.288736
 20
0.521646
  0
SEQEND
  8
0
  0
POLYLINE
  8
CAMADA_1
 62
     1
  6
CONTINUOUS
 66
     1
 40
0.003000
 41
0.003000
  0
VERTEX
  8
CAMADA_1
 62
     1
  6
CONTINUOUS
 10
0.068012
 20
-0.238760
  0
VERTEX
  8
CAMADA_1
 62
     1
  6
CONTINUOUS
 10
0.057608
 20
-0.239969
  0
VERTEX
  8
CAMADA_1
 62
     1
  6
CONTINUOUS
 10
0.048047
 20
-0.243411
  0
VERTEX
  8
CAMADA_1
 62
     1
  6
CONTINUOUS
 10
0.039604
 20
-0.248809
  0
VERTEX
  8
CAMADA_1
 62
     1
  6
CONTINUOUS
 10
0.032556
 20
-0.255886
  0
VERTEX
  8
CAMADA_1
 62
     1
  6
CONTINUOUS
 10
0.027180
 20
-0.264363
  0
VERTEX
  8
CAMADA_1
 62
     1
  6
CONTINUOUS
 10
0.023751
 20
-0.273963
  0
VERTEX
  8
CAMADA_1
 62
     1
  6
CONTINUOUS
 10
0.022547
 20
-0.284409
  0
VERTEX
  8
CAMADA_1
 62
     1
  6
CONTINUOUS
 10
0.023751
 20
-0.294853
  0
VERTEX
  8
CAMADA_1
 62
     1
  6
CONTINUOUS
 10
0.027180
 20
-0.304452
  0
VERTEX
  8
CAMADA_1
 62
     1
  6
CONTINUOUS
 10
0.032556
 20
-0.312928
  0
VERTEX
  8
CAMADA_1
 62
     1
  6
CONTINUOUS
 10
0.039604
 20
-0.320005
  0
VERTEX
  8
CAMADA_1
 62
     1
  6
CONTINUOUS
 10
0.048047
 20
-0.325403
  0
VERTEX
  8
CAMADA_1
 62
     1
  6
CONTINUOUS
 10
0.057608
 20
-0.328846
  0
VERTEX
  8
CAMADA_1
 62
     1
  6
CONTINUOUS
 10
0.068012
 20
-0.330055
  0
VERTEX
  8
CAMADA_1
 62
     1
  6
CONTINUOUS
 10
0.078410
 20
-0.328846
  0
VERTEX
  8
CAMADA_1
 62
     1
  6
CONTINUOUS
 10
0.087967
 20
-0.325403
  0
VERTEX
  8
CAMADA_1
 62
     1
  6
CONTINUOUS
 10
0.096407
 20
-0.320005
  0
VERTEX
  8
CAMADA_1
 62
     1
  6
CONTINUOUS
 10
0.103453
 20
-0.312928
  0
VERTEX
  8
CAMADA_1
 62
     1
  6
CONTINUOUS
 10
0.108828
 20
-0.304452
  0
VERTEX
  8
CAMADA_1
 62
     1
  6
CONTINUOUS
 10
0.112256
 20
-0.294853
  0
VERTEX
  8
CAMADA_1
 62
     1
  6
CONTINUOUS
 10
0.113461
 20
-0.284409
  0
VERTEX
  8
CAMADA_1
 62
     1
  6
CONTINUOUS
 10
0.113461
 20
-0.284409
  0
VERTEX
  8
CAMADA_1
 62
     1
  6
CONTINUOUS
 10
0.112256
 20
-0.273963
  0
VERTEX
  8
CAMADA_1
 62
     1
  6
CONTINUOUS
 10
0.108828
 20
-0.264363
  0
VERTEX
  8
CAMADA_1
 62
     1
  6
CONTINUOUS
 10
0.103453
 20
-0.255886
  0
VERTEX
  8
CAMADA_1
 62
     1
  6
CONTINUOUS
 10
0.096407
 20
-0.248809
  0
VERTEX
  8
CAMADA_1
 62
     1
  6
CONTINUOUS
 10
0.087967
 20
-0.243411
  0
VERTEX
  8
CAMADA_1
 62
     1
  6
CONTINUOUS
 10
0.078410
 20
-0.239969
  0
VERTEX
  8
CAMADA_1
 62
     1
  6
CONTINUOUS
 10
0.068012
 20
-0.238760
  0
SEQEND
  8
0
  0
POLYLINE
  8
CAMADA_1
 62
     1
  6
CONTINUOUS
 66
     1
 40
0.003000
 41
0.003000
  0
VERTEX
  8
CAMADA_1
 62
     1
  6
CONTINUOUS
 10
0.546913
 20
0.101713
  0
VERTEX
  8
CAMADA_1
 62
     1
  6
CONTINUOUS
 10
0.536471
 20
0.100504
  0
VERTEX
  8
CAMADA_1
 62
     1
  6
CONTINUOUS
 10
0.526874
 20
0.097061
  0
VERTEX
  8
CAMADA_1
 62
     1
  6
CONTINUOUS
 10
0.518399
 20
0.091663
  0
VERTEX
  8
CAMADA_1
 62
     1
  6
CONTINUOUS
 10
0.511324
 20
0.084588
  0
VERTEX
  8
CAMADA_1
 62
     1
  6
CONTINUOUS
 10
0.505927
 20
0.076111
  0
VERTEX
  8
CAMADA_1
 62
     1
  6
CONTINUOUS
 10
0.502485
 20
0.066512
  0
VERTEX
  8
CAMADA_1
 62
     1
  6
CONTINUOUS
 10
0.501276
 20
0.056067
  0
VERTEX
  8
CAMADA_1
 62
     1
  6
CONTINUOUS
 10
0.502485
 20
0.045622
  0
VERTEX
  8
CAMADA_1
 62
     1
  6
CONTINUOUS
 10
0.505927
 20
0.036023
  0
VERTEX
  8
CAMADA_1
 62
     1
  6
CONTINUOUS
 10
0.511324
 20
0.027548
  0
VERTEX
  8
CAMADA_1
 62
     1
  6
CONTINUOUS
 10
0.518399
 20
0.020473
  0
VERTEX
  8
CAMADA_1
 62
     1
  6
CONTINUOUS
 10
0.526874
 20
0.015076
  0
VERTEX
  8
CAMADA_1
 62
     1
  6
CONTINUOUS
 10
0.536471
 20
0.011634
  0
VERTEX
  8
CAMADA_1
 62
     1
  6
CONTINUOUS
 10
0.546913
 20
0.010425
  0
VERTEX
  8
CAMADA_1
 62
     1
  6
CONTINUOUS
 10
0.557357
 20
0.011634
  0
VERTEX
  8
CAMADA_1
 62
     1
  6
CONTINUOUS
 10
0.566956
 20
0.015076
  0
VERTEX
  8
CAMADA_1
 62
     1
  6
CONTINUOUS
 10
0.575432
 20
0.020473
  0
VERTEX
  8
CAMADA_1
 62
     1
  6
CONTINUOUS
 10
0.582509
 20
0.027548
  0
VERTEX
  8
CAMADA_1
 62
     1
  6
CONTINUOUS
 10
0.587907
 20
0.036023
  0
VERTEX
  8
CAMADA_1
 62
     1
  6
CONTINUOUS
 10
0.591350
 20
0.045622
  0
VERTEX
  8
CAMADA_1
 62
     1
  6
CONTINUOUS
 10
0.592559
 20
0.056067
  0
VERTEX
  8
CAMADA_1
 62
     1
  6
CONTINUOUS
 10
0.591350
 20
0.066512
  0
VERTEX
  8
CAMADA_1
 62
     1
  6
CONTINUOUS
 10
0.587907
 20
0.076111
  0
VERTEX
  8
CAMADA_1
 62
     1
  6
CONTINUOUS
 10
0.582509
 20
0.084588
  0
VERTEX
  8
CAMADA_1
 62
     1
  6
CONTINUOUS
 10
0.575432
 20
0.091663
  0
VERTEX
  8
CAMADA_1
 62
     1
  6
CONTINUOUS
 10
0.566956
 20
0.097061
  0
VERTEX
  8
CAMADA_1
 62
     1
  6
CONTINUOUS
 10
0.557357
 20
0.100504
  0
VERTEX
  8
CAMADA_1
 62
     1
  6
CONTINUOUS
 10
0.546913
 20
0.101713
  0
SEQEND
  8
0
  0
POLYLINE
  8
CAMADA_1
 62
     1
  6
CONTINUOUS
 66
     1
 40
0.003000
 41
0.003000
  0
VERTEX
  8
CAMADA_1
 62
     1
  6
CONTINUOUS
 10
0.173429
 20
0.664008
  0
VERTEX
  8
CAMADA_1
 62
     1
  6
CONTINUOUS
 10
0.162984
 20
0.662799
  0
VERTEX
  8
CAMADA_1
 62
     1
  6
CONTINUOUS
 10
0.153385
 20
0.659356
  0
VERTEX
  8
CAMADA_1
 62
     1
  6
CONTINUOUS
 10
0.144909
 20
0.653957
  0
VERTEX
  8
CAMADA_1
 62
     1
  6
CONTINUOUS
 10
0.137833
 20
0.646881
  0
VERTEX
  8
CAMADA_1
 62
     1
  6
CONTINUOUS
 10
0.132435
 20
0.638405
  0
VERTEX
  8
CAMADA_1
 62
     1
  6
CONTINUOUS
 10
0.128993
 20
0.628806
  0
VERTEX
  8
CAMADA_1
 62
     1
  6
CONTINUOUS
 10
0.127783
 20
0.618362
  0
VERTEX
  8
CAMADA_1
 62
     1
  6
CONTINUOUS
 10
0.128993
 20
0.607914
  0
VERTEX
  8
CAMADA_1
 62
     1
  6
CONTINUOUS
 10
0.132435
 20
0.598314
  0
VERTEX
  8
CAMADA_1
 62
     1
  6
CONTINUOUS
 10
0.137833
 20
0.589838
  0
VERTEX
  8
CAMADA_1
 62
     1
  6
CONTINUOUS
 10
0.144909
 20
0.582764
  0
VERTEX
  8
CAMADA_1
 62
     1
  6
CONTINUOUS
 10
0.153385
 20
0.577369
  0
VERTEX
  8
CAMADA_1
 62
     1
  6
CONTINUOUS
 10
0.162984
 20
0.573929
  0
VERTEX
  8
CAMADA_1
 62
     1
  6
CONTINUOUS
 10
0.173429
 20
0.572720
  0
VERTEX
  8
CAMADA_1
 62
     1
  6
CONTINUOUS
 10
0.183875
 20
0.573929
  0
VERTEX
  8
CAMADA_1
 62
     1
  6
CONTINUOUS
 10
0.193476
 20
0.577369
  0
VERTEX
  8
CAMADA_1
 62
     1
  6
CONTINUOUS
 10
0.201953
 20
0.582764
  0
VERTEX
  8
CAMADA_1
 62
     1
  6
CONTINUOUS
 10
0.209029
 20
0.589838
  0
VERTEX
  8
CAMADA_1
 62
     1
  6
CONTINUOUS
 10
0.214427
 20
0.598314
  0
VERTEX
  8
CAMADA_1
 62
     1
  6
CONTINUOUS
 10
0.217870
 20
0.607914
  0
VERTEX
  8
CAMADA_1
 62
     1
  6
CONTINUOUS
 10
0.219079
 20
0.618362
  0
VERTEX
  8
CAMADA_1
 62
     1
  6
CONTINUOUS
 10
0.217870
 20
0.628806
  0
VERTEX
  8
CAMADA_1
 62
     1
  6
CONTINUOUS
 10
0.214427
 20
0.638405
  0
VERTEX
  8
CAMADA_1
 62
     1
  6
CONTINUOUS
 10
0.209029
 20
0.646881
  0
VERTEX
  8
CAMADA_1
 62
     1
  6
CONTINUOUS
 10
0.201953
 20
0.653957
  0
VERTEX
  8
CAMADA_1
 62
     1
  6
CONTINUOUS
 10
0.193476
 20
0.659356
  0
VERTEX
  8
CAMADA_1
 62
     1
  6
CONTINUOUS
 10
0.183875
 20
0.662799
  0
VERTEX
  8
CAMADA_1
 62
     1
  6
CONTINUOUS
 10
0.173429
 20
0.664008
  0
SEQEND
  8
0
  0
POLYLINE
  8
CAMADA_1
 62
     1
  6
CONTINUOUS
 66
     1
 40
0.003000
 41
0.003000
  0
VERTEX
  8
CAMADA_1
 62
     1
  6
CONTINUOUS
 10
-0.396846
 20
-0.659165
  0
VERTEX
  8
CAMADA_1
 62
     1
  6
CONTINUOUS
 10
-0.396846
 20
-0.539402
  0
VERTEX
  8
CAMADA_1
 62
     1
  6
CONTINUOUS
 10
-0.345555
 20
-0.539402
  0
VERTEX
  8
CAMADA_1
 62
     1
  6
CONTINUOUS
 10
-0.275752
 20
-0.622008
  0
VERTEX
  8
CAMADA_1
 62
     1
  6
CONTINUOUS
 10
-0.275752
 20
-0.540154
  0
VERTEX
  8
CAMADA_1
 62
     1
  6
CONTINUOUS
 10
-0.239929
 20
-0.540154
  0
VERTEX
  8
CAMADA_1
 62
     1
  6
CONTINUOUS
 10
-0.239929
 20
-0.659165
  0
VERTEX
  8
CAMADA_1
 62
     1
  6
CONTINUOUS
 10
-0.294622
 20
-0.659165
  0
VERTEX
  8
CAMADA_1
 62
     1
  6
CONTINUOUS
 10
-0.361764
 20
-0.580705
  0
VERTEX
  8
CAMADA_1
 62
     1
  6
CONTINUOUS
 10
-0.361764
 20
-0.659165
  0
VERTEX
  8
CAMADA_1
 62
     1
  6
CONTINUOUS
 10
-0.396846
 20
-0.659165
  0
SEQEND
  8
0
  0
SOLID
  8
CAMADA_1
 62
     1
 10
-0.209075
 20
-0.659165
 11
-0.209075
 21
-0.538457
 12
-0.175504
 22
-0.659165
 13
-0.175504
 23
-0.538457
  0
POLYLINE
  8
CAMADA_1
 62
     1
  6
CONTINUOUS
 66
     1
 40
0.003000
 41
0.003000
  0
VERTEX
  8
CAMADA_1
 62
     1
  6
CONTINUOUS
 10
-0.209075
 20
-0.659165
  0
VERTEX
  8
CAMADA_1
 62
     1
  6
CONTINUOUS
 10
-0.209075
 20
-0.538457
  0
VERTEX
  8
CAMADA_1
 62
     1
  6
CONTINUOUS
 10
-0.175504
 20
-0.538457
  0
VERTEX
  8
CAMADA_1
 62
     1
  6
CONTINUOUS
 10
-0.175504
 20
-0.659165
  0
VERTEX
  8
CAMADA_1
 62
     1
  6
CONTINUOUS
 10
-0.209075
 20
-0.659165
  0
SEQEND
  8
0
  0
POLYLINE
  8
CAMADA_1
 62
     1
  6
CONTINUOUS
 66
     1
 40
0.003000
 41
0.003000
  0
VERTEX
  8
CAMADA_1
 62
     1
  6
CONTINUOUS
 10
-0.041417
 20
-0.615323
  0
VERTEX
  8
CAMADA_1
 62
     1
  6
CONTINUOUS
 10
-0.008039
 20
-0.615323
  0
VERTEX
  8
CAMADA_1
 62
     1
  6
CONTINUOUS
 10
-0.008039
 20
-0.631358
  0
VERTEX
  8
CAMADA_1
 62
     1
  6
CONTINUOUS
 10
-0.010538
 20
-0.642960
  0
VERTEX
  8
CAMADA_1
 62
     1
  6
CONTINUOUS
 10
-0.017279
 20
-0.652175
  0
VERTEX
  8
CAMADA_1
 62
     1
  6
CONTINUOUS
 10
-0.027130
 20
-0.657958
  0
VERTEX
  8
CAMADA_1
 62
     1
  6
CONTINUOUS
 10
-0.038961
 20
-0.659264
  0
VERTEX
  8
CAMADA_1
 62
     1
  6
CONTINUOUS
 10
-0.108370
 20
-0.659264
  0
VERTEX
  8
CAMADA_1
 62
     1
  6
CONTINUOUS
 10
-0.118346
 20
-0.657773
  0
VERTEX
  8
CAMADA_1
 62
     1
  6
CONTINUOUS
 10
-0.127144
 20
-0.653584
  0
VERTEX
  8
CAMADA_1
 62
     1
  6
CONTINUOUS
 10
-0.134310
 20
-0.647124
  0
VERTEX
  8
CAMADA_1
 62
     1
  6
CONTINUOUS
 10
-0.139393
 20
-0.638817
  0
VERTEX
  8
CAMADA_1
 62
     1
  6
CONTINUOUS
 10
-0.141941
 20
-0.629091
  0
VERTEX
  8
CAMADA_1
 62
     1
  6
CONTINUOUS
 10
-0.141941
 20
-0.568732
  0
VERTEX
  8
CAMADA_1
 62
     1
  6
CONTINUOUS
 10
-0.140170
 20
-0.558531
  0
VERTEX
  8
CAMADA_1
 62
     1
  6
CONTINUOUS
 10
-0.135285
 20
-0.549825
  0
VERTEX
  8
CAMADA_1
 62
     1
  6
CONTINUOUS
 10
-0.127929
 20
-0.543202
  0
VERTEX
  8
CAMADA_1
 62
     1
  6
CONTINUOUS
 10
-0.118743
 20
-0.539251
  0
VERTEX
  8
CAMADA_1
 62
     1
  6
CONTINUOUS
 10
-0.108370
 20
-0.538559
  0
VERTEX
  8
CAMADA_1
 62
     1
  6
CONTINUOUS
 10
-0.038961
 20
-0.538559
  0
VERTEX
  8
CAMADA_1
 62
     1
  6
CONTINUOUS
 10
-0.027576
 20
-0.540693
  0
VERTEX
  8
CAMADA_1
 62
     1
  6
CONTINUOUS
 10
-0.018031
 20
-0.546574
  0
VERTEX
  8
CAMADA_1
 62
     1
  6
CONTINUOUS
 10
-0.011169
 20
-0.555426
  0
VERTEX
  8
CAMADA_1
 62
     1
  6
CONTINUOUS
 10
-0.007835
 20
-0.566469
  0
VERTEX
  8
CAMADA_1
 62
     1
  6
CONTINUOUS
 10
-0.007835
 20
-0.582685
  0
VERTEX
  8
CAMADA_1
 62
     1
  6
CONTINUOUS
 10
-0.041417
 20
-0.582685
  0
VERTEX
  8
CAMADA_1
 62
     1
  6
CONTINUOUS
 10
-0.043610
 20
-0.575383
  0
VERTEX
  8
CAMADA_1
 62
     1
  6
CONTINUOUS
 10
-0.049029
 20
-0.570384
  0
VERTEX
  8
CAMADA_1
 62
     1
  6
CONTINUOUS
 10
-0.056516
 20
-0.568732
  0
VERTEX
  8
CAMADA_1
 62
     1
  6
CONTINUOUS
 10
-0.091594
 20
-0.568732
  0
VERTEX
  8
CAMADA_1
 62
     1
  6
CONTINUOUS
 10
-0.099802
 20
-0.570553
  0
VERTEX
  8
CAMADA_1
 62
     1
  6
CONTINUOUS
 10
-0.105827
 20
-0.575972
  0
VERTEX
  8
CAMADA_1
 62
     1
  6
CONTINUOUS
 10
-0.108370
 20
-0.583819
  0
VERTEX
  8
CAMADA_1
 62
     1
  6
CONTINUOUS
 10
-0.108370
 20
-0.614000
  0
VERTEX
  8
CAMADA_1
 62
     1
  6
CONTINUOUS
 10
-0.105827
 20
-0.621939
  0
VERTEX
  8
CAMADA_1
 62
     1
  6
CONTINUOUS
 10
-0.099802
 20
-0.627316
  0
VERTEX
  8
CAMADA_1
 62
     1
  6
CONTINUOUS
 10
-0.091594
 20
-0.629091
  0
VERTEX
  8
CAMADA_1
 62
     1
  6
CONTINUOUS
 10
-0.056516
 20
-0.629091
  0
VERTEX
  8
CAMADA_1
 62
     1
  6
CONTINUOUS
 10
-0.049165
 20
-0.627489
  0
VERTEX
  8
CAMADA_1
 62
     1
  6
CONTINUOUS
 10
-0.043742
 20
-0.622578
  0
VERTEX
  8
CAMADA_1
 62
     1
  6
CONTINUOUS
 10
-0.041417
 20
-0.615323
  0
SEQEND
  8
0
  0
POLYLINE
  8
CAMADA_1
 62
     1
  6
CONTINUOUS
 66
     1
 40
0.003000
 41
0.003000
  0
VERTEX
  8
CAMADA_1
 62
     1
  6
CONTINUOUS
 10
0.060213
 20
-0.640079
  0
VERTEX
  8
CAMADA_1
 62
     1
  6
CONTINUOUS
 10
0.051972
 20
-0.659303
  0
VERTEX
  8
CAMADA_1
 62
     1
  6
CONTINUOUS
 10
0.016283
 20
-0.659303
  0
VERTEX
  8
CAMADA_1
 62
     1
  6
CONTINUOUS
 10
0.065701
 20
-0.539874
  0
VERTEX
  8
CAMADA_1
 62
     1
  6
CONTINUOUS
 10
0.120602
 20
-0.539874
  0
VERTEX
  8
CAMADA_1
 62
     1
  6
CONTINUOUS
 10
0.171398
 20
-0.659303
  0
VERTEX
  8
CAMADA_1
 62
     1
  6
CONTINUOUS
 10
0.132961
 20
-0.659303
  0
VERTEX
  8
CAMADA_1
 62
     1
  6
CONTINUOUS
 10
0.127472
 20
-0.640079
  0
VERTEX
  8
CAMADA_1
 62
     1
  6
CONTINUOUS
 10
0.060213
 20
-0.640079
  0
SEQEND
  8
0
  0
SOLID
  8
CAMADA_1
 62
     1
 10
0.113752
 20
-0.611256
 11
0.072563
 21
-0.611256
 12
0.113752
 22
-0.611256
 13
0.093150
 23
-0.560472
  0
POLYLINE
  8
CAMADA_1
 62
     1
  6
CONTINUOUS
 66
     1
 40
0.003000
 41
0.003000
  0
VERTEX
  8
CAMADA_1
 62
     1
  6
CONTINUOUS
 10
0.113752
 20
-0.611256
  0
VERTEX
  8
CAMADA_1
 62
     1
  6
CONTINUOUS
 10
0.072563
 20
-0.611256
  0
VERTEX
  8
CAMADA_1
 62
     1
  6
CONTINUOUS
 10
0.093150
 20
-0.560472
  0
VERTEX
  8
CAMADA_1
 62
     1
  6
CONTINUOUS
 10
0.113752
 20
-0.611256
  0
SEQEND
  8
0
  0
POLYLINE
  8
CAMADA_1
 62
     1
  6
CONTINUOUS
 66
     1
 40
0.003000
 41
0.003000
  0
VERTEX
  8
CAMADA_1
 62
     1
  6
CONTINUOUS
 10
0.233539
 20
-0.590551
  0
VERTEX
  8
CAMADA_1
 62
     1
  6
CONTINUOUS
 10
0.233539
 20
-0.659020
  0
VERTEX
  8
CAMADA_1
 62
     1
  6
CONTINUOUS
 10
0.199969
 20
-0.659020
  0
VERTEX
  8
CAMADA_1
 62
     1
  6
CONTINUOUS
 10
0.199969
 20
-0.538323
  0
VERTEX
  8
CAMADA_1
 62
     1
  6
CONTINUOUS
 10
0.238626
 20
-0.538323
  0
VERTEX
  8
CAMADA_1
 62
     1
  6
CONTINUOUS
 10
0.299181
 20
-0.632437
  0
VERTEX
  8
CAMADA_1
 62
     1
  6
CONTINUOUS
 10
0.355563
 20
-0.538323
  0
VERTEX
  8
CAMADA_1
 62
     1
  6
CONTINUOUS
 10
0.393669
 20
-0.538323
  0
VERTEX
  8
CAMADA_1
 62
     1
  6
CONTINUOUS
 10
0.393669
 20
-0.659020
  0
VERTEX
  8
CAMADA_1
 62
     1
  6
CONTINUOUS
 10
0.360091
 20
-0.659020
  0
VERTEX
  8
CAMADA_1
 62
     1
  6
CONTINUOUS
 10
0.360091
 20
-0.594331
  0
VERTEX
  8
CAMADA_1
 62
     1
  6
CONTINUOUS
 10
0.321240
 20
-0.659020
  0
VERTEX
  8
CAMADA_1
 62
     1
  6
CONTINUOUS
 10
0.277480
 20
-0.659020
  0
VERTEX
  8
CAMADA_1
 62
     1
  6
CONTINUOUS
 10
0.233539
 20
-0.590551
  0
SEQEND
  8
0
  0
POLYLINE
  8
CAMADA_1
 62
     1
  6
CONTINUOUS
 66
     1
 40
0.003000
 41
0.003000
  0
VERTEX
  8
CAMADA_1
 62
     1
  6
CONTINUOUS
 10
0.424409
 20
-0.659165
  0
VERTEX
  8
CAMADA_1
 62
     1
  6
CONTINUOUS
 10
0.424409
 20
-0.537004
  0
VERTEX
  8
CAMADA_1
 62
     1
  6
CONTINUOUS
 10
0.530102
 20
-0.537004
  0
VERTEX
  8
CAMADA_1
 62
     1
  6
CONTINUOUS
 10
0.541607
 20
-0.539405
  0
VERTEX
  8
CAMADA_1
 62
     1
  6
CONTINUOUS
 10
0.551047
 20
-0.545922
  0
VERTEX
  8
CAMADA_1
 62
     1
  6
CONTINUOUS
 10
0.557910
 20
-0.555527
  0
VERTEX
  8
CAMADA_1
 62
     1
  6
CONTINUOUS
 10
0.561681
 20
-0.567189
  0
VERTEX
  8
CAMADA_1
 62
     1
  6
CONTINUOUS
 10
0.561681
 20
-0.600138
  0
VERTEX
  8
CAMADA_1
 62
     1
  6
CONTINUOUS
 10
0.559980
 20
-0.609750
  0
VERTEX
  8
CAMADA_1
 62
     1
  6
CONTINUOUS
 10
0.555314
 20
-0.618374
  0
VERTEX
  8
CAMADA_1
 62
     1
  6
CONTINUOUS
 10
0.548341
 20
-0.625351
  0
VERTEX
  8
CAMADA_1
 62
     1
  6
CONTINUOUS
 10
0.539718
 20
-0.630021
  0
VERTEX
  8
CAMADA_1
 62
     1
  6
CONTINUOUS
 10
0.530102
 20
-0.631724
  0
VERTEX
  8
CAMADA_1
 62
     1
  6
CONTINUOUS
 10
0.460098
 20
-0.631724
  0
VERTEX
  8
CAMADA_1
 62
     1
  6
CONTINUOUS
 10
0.460098
 20
-0.659165
  0
VERTEX
  8
CAMADA_1
 62
     1
  6
CONTINUOUS
 10
0.424409
 20
-0.659165
  0
SEQEND
  8
0
  0
POLYLINE
  8
CAMADA_1
 62
     1
  6
CONTINUOUS
 66
     1
 40
0.003000
 41
0.003000
  0
VERTEX
  8
CAMADA_1
 62
     1
  6
CONTINUOUS
 10
0.460098
 20
-0.598780
  0
VERTEX
  8
CAMADA_1
 62
     1
  6
CONTINUOUS
 10
0.460098
 20
-0.568571
  0
VERTEX
  8
CAMADA_1
 62
     1
  6
CONTINUOUS
 10
0.513630
 20
-0.568571
  0
VERTEX
  8
CAMADA_1
 62
     1
  6
CONTINUOUS
 10
0.521194
 20
-0.570244
  0
VERTEX
  8
CAMADA_1
 62
     1
  6
CONTINUOUS
 10
0.526236
 20
-0.574560
  0
VERTEX
  8
CAMADA_1
 62
     1
  6
CONTINUOUS
 10
0.528758
 20
-0.580461
  0
VERTEX
  8
CAMADA_1
 62
     1
  6
CONTINUOUS
 10
0.528758
 20
-0.586890
  0
VERTEX
  8
CAMADA_1
 62
     1
  6
CONTINUOUS
 10
0.526236
 20
-0.592791
  0
VERTEX
  8
CAMADA_1
 62
     1
  6
CONTINUOUS
 10
0.521194
 20
-0.597106
  0
VERTEX
  8
CAMADA_1
 62
     1
  6
CONTINUOUS
 10
0.513630
 20
-0.598780
  0
VERTEX
  8
CAMADA_1
 62
     1
  6
CONTINUOUS
 10
0.460098
 20
-0.598780
  0
SEQEND
  8
0
  0
POLYLINE
  8
CAMADA_1
 62
     1
  6
CONTINUOUS
 66
     1
 40
0.003000
 41
0.003000
  0
VERTEX
  8
CAMADA_1
 62
     1
  6
CONTINUOUS
 10
-0.543870
 20
-0.613772
  0
VERTEX
  8
CAMADA_1
 62
     1
  6
CONTINUOUS
 10
-0.543870
 20
-0.538339
  0
VERTEX
  8
CAMADA_1
 62
     1
  6
CONTINUOUS
 10
-0.577445
 20
-0.538339
  0
VERTEX
  8
CAMADA_1
 62
     1
  6
CONTINUOUS
 10
-0.577445
 20
-0.630185
  0
VERTEX
  8
CAMADA_1
 62
     1
  6
CONTINUOUS
 10
-0.575163
 20
-0.641454
  0
VERTEX
  8
CAMADA_1
 62
     1
  6
CONTINUOUS
 10
-0.568955
 20
-0.650619
  0
VERTEX
  8
CAMADA_1
 62
     1
  6
CONTINUOUS
 10
-0.559776
 20
-0.656778
  0
VERTEX
  8
CAMADA_1
 62
     1
  6
CONTINUOUS
 10
-0.548583
 20
-0.659031
  0
VERTEX
  8
CAMADA_1
 62
     1
  6
CONTINUOUS
 10
-0.454469
 20
-0.659031
  0
VERTEX
  8
CAMADA_1
 62
     1
  6
CONTINUOUS
 10
-0.443196
 20
-0.656778
  0
VERTEX
  8
CAMADA_1
 62
     1
  6
CONTINUOUS
 10
-0.434032
 20
-0.650619
  0
VERTEX
  8
CAMADA_1
 62
     1
  6
CONTINUOUS
 10
-0.427874
 20
-0.641454
  0
VERTEX
  8
CAMADA_1
 62
     1
  6
CONTINUOUS
 10
-0.425622
 20
-0.630185
  0
VERTEX
  8
CAMADA_1
 62
     1
  6
CONTINUOUS
 10
-0.425622
 20
-0.539280
  0
VERTEX
  8
CAMADA_1
 62
     1
  6
CONTINUOUS
 10
-0.459185
 20
-0.539280
  0
VERTEX
  8
CAMADA_1
 62
     1
  6
CONTINUOUS
 10
-0.459185
 20
-0.613772
  0
VERTEX
  8
CAMADA_1
 62
     1
  6
CONTINUOUS
 10
-0.461252
 20
-0.621372
  0
VERTEX
  8
CAMADA_1
 62
     1
  6
CONTINUOUS
 10
-0.466671
 20
-0.626791
  0
VERTEX
  8
CAMADA_1
 62
     1
  6
CONTINUOUS
 10
-0.474268
 20
-0.628858
  0
VERTEX
  8
CAMADA_1
 62
     1
  6
CONTINUOUS
 10
-0.528776
 20
-0.628858
  0
VERTEX
  8
CAMADA_1
 62
     1
  6
CONTINUOUS
 10
-0.536383
 20
-0.626791
  0
VERTEX
  8
CAMADA_1
 62
     1
  6
CONTINUOUS
 10
-0.541804
 20
-0.621372
  0
VERTEX
  8
CAMADA_1
 62
     1
  6
CONTINUOUS
 10
-0.543870
 20
-0.613772
  0
SEQEND
  8
0
  0
POLYLINE
  8
CAMADA_1
 62
     1
  6
CONTINUOUS
 66
     1
 40
0.003000
 41
0.003000
  0
VERTEX
  8
CAMADA_1
 62
     1
  6
CONTINUOUS
 10
0.440917
 20
0.272476
  0
VERTEX
  8
CAMADA_1
 62
     1
  6
CONTINUOUS
 10
0.436971
 20
0.281736
  0
VERTEX
  8
CAMADA_1
 62
     1
  6
CONTINUOUS
 10
0.432964
 20
0.290969
  0
VERTEX
  8
CAMADA_1
 62
     1
  6
CONTINUOUS
 10
0.428896
 20
0.300175
  0
VERTEX
  8
CAMADA_1
 62
     1
  6
CONTINUOUS
 10
0.424769
 20
0.309353
  0
VERTEX
  8
CAMADA_1
 62
     1
  6
CONTINUOUS
 10
0.420581
 20
0.318504
  0
VERTEX
  8
CAMADA_1
 62
     1
  6
CONTINUOUS
 10
0.416333
 20
0.327628
  0
VERTEX
  8
CAMADA_1
 62
     1
  6
CONTINUOUS
 10
0.412025
 20
0.336725
  0
VERTEX
  8
CAMADA_1
 62
     1
  6
CONTINUOUS
 10
0.407656
 20
0.345795
  0
VERTEX
  8
CAMADA_1
 62
     1
  6
CONTINUOUS
 10
0.403226
 20
0.354837
  0
VERTEX
  8
CAMADA_1
 62
     1
  6
CONTINUOUS
 10
0.398736
 20
0.363852
  0
VERTEX
  8
CAMADA_1
 62
     1
  6
CONTINUOUS
 10
0.394185
 20
0.372839
  0
VERTEX
  8
CAMADA_1
 62
     1
  6
CONTINUOUS
 10
0.389574
 20
0.381799
  0
VERTEX
  8
CAMADA_1
 62
     1
  6
CONTINUOUS
 10
0.384902
 20
0.390732
  0
VERTEX
  8
CAMADA_1
 62
     1
  6
CONTINUOUS
 10
0.379667
 20
0.399853
  0
VERTEX
  8
CAMADA_1
 62
     1
  6
CONTINUOUS
 10
0.374338
 20
0.408907
  0
VERTEX
  8
CAMADA_1
 62
     1
  6
CONTINUOUS
 10
0.368915
 20
0.417898
  0
VERTEX
  8
CAMADA_1
 62
     1
  6
CONTINUOUS
 10
0.363396
 20
0.426826
  0
VERTEX
  8
CAMADA_1
 62
     1
  6
CONTINUOUS
 10
0.357783
 20
0.435693
  0
VERTEX
  8
CAMADA_1
 62
     1
  6
CONTINUOUS
 10
0.352075
 20
0.444500
  0
VERTEX
  8
CAMADA_1
 62
     1
  6
CONTINUOUS
 10
0.073130
 20
0.165535
  0
VERTEX
  8
CAMADA_1
 62
     1
  6
CONTINUOUS
 10
0.081604
 20
0.154535
  0
VERTEX
  8
CAMADA_1
 62
     1
  6
CONTINUOUS
 10
0.089239
 20
0.143028
  0
VERTEX
  8
CAMADA_1
 62
     1
  6
CONTINUOUS
 10
0.095957
 20
0.131028
  0
VERTEX
  8
CAMADA_1
 62
     1
  6
CONTINUOUS
 10
0.440917
 20
0.272476
  0
SEQEND
  8
0
  0
POLYLINE
  8
CAMADA_1
 62
     1
  6
CONTINUOUS
 66
     1
 40
0.003000
 41
0.003000
  0
VERTEX
  8
CAMADA_1
 62
     1
  6
CONTINUOUS
 10
0.452256
 20
0.244618
  0
VERTEX
  8
CAMADA_1
 62
     1
  6
CONTINUOUS
 10
0.455831
 20
0.235272
  0
VERTEX
  8
CAMADA_1
 62
     1
  6
CONTINUOUS
 10
0.459357
 20
0.225903
  0
VERTEX
  8
CAMADA_1
 62
     1
  6
CONTINUOUS
 10
0.462835
 20
0.216511
  0
VERTEX
  8
CAMADA_1
 62
     1
  6
CONTINUOUS
 10
0.466263
 20
0.207098
  0
VERTEX
  8
CAMADA_1
 62
     1
  6
CONTINUOUS
 10
0.469640
 20
0.197663
  0
VERTEX
  8
CAMADA_1
 62
     1
  6
CONTINUOUS
 10
0.472964
 20
0.188207
  0
VERTEX
  8
CAMADA_1
 62
     1
  6
CONTINUOUS
 10
0.476235
 20
0.178730
  0
VERTEX
  8
CAMADA_1
 62
     1
  6
CONTINUOUS
 10
0.479452
 20
0.169233
  0
VERTEX
  8
CAMADA_1
 62
     1
  6
CONTINUOUS
 10
0.482612
 20
0.159717
  0
VERTEX
  8
CAMADA_1
 62
     1
  6
CONTINUOUS
 10
0.485716
 20
0.150181
  0
VERTEX
  8
CAMADA_1
 62
     1
  6
CONTINUOUS
 10
0.488762
 20
0.140626
  0
VERTEX
  8
CAMADA_1
 62
     1
  6
CONTINUOUS
 10
0.491748
 20
0.131052
  0
VERTEX
  8
CAMADA_1
 62
     1
  6
CONTINUOUS
 10
0.494674
 20
0.121460
  0
VERTEX
  8
CAMADA_1
 62
     1
  6
CONTINUOUS
 10
0.497539
 20
0.111850
  0
VERTEX
  8
CAMADA_1
 62
     1
  6
CONTINUOUS
 10
0.487958
 20
0.104638
  0
VERTEX
  8
CAMADA_1
 62
     1
  6
CONTINUOUS
 10
0.479694
 20
0.096041
  0
VERTEX
  8
CAMADA_1
 62
     1
  6
CONTINUOUS
 10
0.472882
 20
0.086259
  0
VERTEX
  8
CAMADA_1
 62
     1
  6
CONTINUOUS
 10
0.467655
 20
0.075492
  0
VERTEX
  8
CAMADA_1
 62
     1
  6
CONTINUOUS
 10
0.464150
 20
0.063941
  0
VERTEX
  8
CAMADA_1
 62
     1
  6
CONTINUOUS
 10
0.115224
 20
0.063941
  0
VERTEX
  8
CAMADA_1
 62
     1
  6
CONTINUOUS
 10
0.113639
 20
0.077261
  0
VERTEX
  8
CAMADA_1
 62
     1
  6
CONTINUOUS
 10
0.111088
 20
0.090414
  0
VERTEX
  8
CAMADA_1
 62
     1
  6
CONTINUOUS
 10
0.107484
 20
0.103358
  0
VERTEX
  8
CAMADA_1
 62
     1
  6
CONTINUOUS
 10
0.452256
 20
0.244618
  0
SEQEND
  8
0
  0
ENDSEC
  0
EOF
